ISO-10303-21;
HEADER;
FILE_DESCRIPTION (( 'STEP AP203' ),
    '1' );
FILE_NAME ('QB-CTZHWP-25.4-852-M.STEP',
    '2020-12-24T01:36:58',
    ( '' ),
    ( '' ),
    'SwSTEP 2.0',
    'SolidWorks 2020',
    '' );
FILE_SCHEMA (( 'CONFIG_CONTROL_DESIGN' ));
ENDSEC;

DATA;
#1 = CC_DESIGN_APPROVAL ( #141, ( #131 ) ) ;
#2 = CC_DESIGN_PERSON_AND_ORGANIZATION_ASSIGNMENT ( #157, #20, ( #119 ) ) ;
#3 = AXIS2_PLACEMENT_3D ( 'NONE', #44, #92, #30 ) ;
#4 = CARTESIAN_POINT ( 'NONE',  ( 3.000000000000000000, 1.836970198721029589E-15, -15.00000000000000000 ) ) ;
#5 = CYLINDRICAL_SURFACE ( 'NONE', #148, 15.00000000000000000 ) ;
#6 = DIRECTION ( 'NONE',  ( -1.000000000000000000, -0.000000000000000000, -0.000000000000000000 ) ) ;
#7 = DATE_AND_TIME ( #129, #151 ) ;
#8 =( LENGTH_UNIT ( ) NAMED_UNIT ( * ) SI_UNIT ( .MILLI., .METRE. ) );
#9 = CALENDAR_DATE ( 2020, 24, 12 ) ;
#10 = ORIENTED_EDGE ( 'NONE', *, *, #147, .F. ) ;
#11 = EDGE_LOOP ( 'NONE', ( #10, #146 ) ) ;
#12 = DATE_TIME_ROLE ( 'classification_date' ) ;
#13 = LINE ( 'NONE', #63, #43 ) ;
#14 = AXIS2_PLACEMENT_3D ( 'NONE', #97, #32, #96 ) ;
#15 = DIRECTION ( 'NONE',  ( -1.000000000000000000, -0.000000000000000000, -0.000000000000000000 ) ) ;
#16 = CARTESIAN_POINT ( 'NONE',  ( -3.000000000000000000, 0.000000000000000000, 0.000000000000000000 ) ) ;
#17 = PERSON_AND_ORGANIZATION ( #93, #152 ) ;
#18 = CC_DESIGN_PERSON_AND_ORGANIZATION_ASSIGNMENT ( #175, #55, ( #65 ) ) ;
#19 = CARTESIAN_POINT ( 'NONE',  ( 3.000000000000000000, 0.000000000000000000, 0.000000000000000000 ) ) ;
#20 = PERSON_AND_ORGANIZATION_ROLE ( 'creator' ) ;
#21 = EDGE_LOOP ( 'NONE', ( #116, #49, #85, #174 ) ) ;
#22 = VERTEX_POINT ( 'NONE', #145 ) ;
#23 = APPROVAL_ROLE ( '' ) ;
#24 = PERSON_AND_ORGANIZATION_ROLE ( 'design_supplier' ) ;
#25 = PRODUCT_DEFINITION_SHAPE ( 'NONE', 'NONE',  #119 ) ;
#26 = AXIS2_PLACEMENT_3D ( 'NONE', #19, #154, #67 ) ;
#27 = CC_DESIGN_DATE_AND_TIME_ASSIGNMENT ( #170, #111, ( #119 ) ) ;
#28 = EDGE_CURVE ( 'NONE', #61, #159, #13, .T. ) ;
#29 = DIRECTION ( 'NONE',  ( -1.000000000000000000, -0.000000000000000000, -0.000000000000000000 ) ) ;
#30 = DIRECTION ( 'NONE',  ( 0.000000000000000000, 0.000000000000000000, 1.000000000000000000 ) ) ;
#31 = CARTESIAN_POINT ( 'NONE',  ( 3.000000000000000888, 12.69999999999999929, 0.000000000000000000 ) ) ;
#32 = DIRECTION ( 'NONE',  ( 0.000000000000000000, 0.000000000000000000, 1.000000000000000000 ) ) ;
#33 = CALENDAR_DATE ( 2020, 24, 12 ) ;
#34 = MECHANICAL_CONTEXT ( 'NONE', #136, 'mechanical' ) ;
#35 = CC_DESIGN_DATE_AND_TIME_ASSIGNMENT ( #51, #12, ( #131 ) ) ;
#36 = APPROVAL_PERSON_ORGANIZATION ( #162, #141, #23 ) ;
#37 = ORIENTED_EDGE ( 'NONE', *, *, #53, .F. ) ;
#38 = ORIENTED_EDGE ( 'NONE', *, *, #138, .T. ) ;
#39 = DESIGN_CONTEXT ( 'detailed design', #137, 'design' ) ;
#40 = APPROVAL_PERSON_ORGANIZATION ( #47, #173, #156 ) ;
#41 = SHAPE_DEFINITION_REPRESENTATION ( #25, #46 ) ;
#42 = CLOSED_SHELL ( 'NONE', ( #78, #60, #88, #91 ) ) ;
#43 = VECTOR ( 'NONE', #101, 1000.000000000000000 ) ;
#44 = CARTESIAN_POINT ( 'NONE',  ( 3.000000000000000000, 0.000000000000000000, 0.000000000000000000 ) ) ;
#45 = CARTESIAN_POINT ( 'NONE',  ( -1.614212418857619014, 0.000000000000000000, 0.000000000000000000 ) ) ;
#46 = ADVANCED_BREP_SHAPE_REPRESENTATION ( 'QB-CTZHWP-25.4-852-M', ( #120, #14 ), #79 ) ;
#47 = PERSON_AND_ORGANIZATION ( #93, #152 ) ;
#48 = APPROVAL_ROLE ( '' ) ;
#49 = ORIENTED_EDGE ( 'NONE', *, *, #124, .T. ) ;
#50 = PRODUCT_RELATED_PRODUCT_CATEGORY ( 'detail', '', ( #133 ) ) ;
#51 = DATE_AND_TIME ( #56, #172 ) ;
#52 = VERTEX_POINT ( 'NONE', #115 ) ;
#53 = EDGE_CURVE ( 'NONE', #22, #52, #100, .T. ) ;
#54 = PERSON_AND_ORGANIZATION ( #93, #152 ) ;
#55 = PERSON_AND_ORGANIZATION_ROLE ( 'creator' ) ;
#56 = CALENDAR_DATE ( 2020, 24, 12 ) ;
#57 = DIRECTION ( 'NONE',  ( 0.000000000000000000, 0.000000000000000000, 1.000000000000000000 ) ) ;
#58 = FACE_OUTER_BOUND ( 'NONE', #21, .T. ) ;
#59 = COORDINATED_UNIVERSAL_TIME_OFFSET ( 8, 0, .AHEAD. ) ;
#60 = ADVANCED_FACE ( 'NONE', ( #80 ), #68, .F. ) ;
#61 = VERTEX_POINT ( 'NONE', #4 ) ;
#62 = AXIS2_PLACEMENT_3D ( 'NONE', #142, #6, #125 ) ;
#63 = CARTESIAN_POINT ( 'NONE',  ( -1.614212418857619014, 1.836970198721029589E-15, -15.00000000000000000 ) ) ;
#64 = AXIS2_PLACEMENT_3D ( 'NONE', #45, #121, #57 ) ;
#65 = PRODUCT_DEFINITION_FORMATION_WITH_SPECIFIED_SOURCE ( 'ANY', '', #133, .NOT_KNOWN. ) ;
#66 = DIRECTION ( 'NONE',  ( -1.000000000000000000, 0.000000000000000000, -0.000000000000000000 ) ) ;
#67 = DIRECTION ( 'NONE',  ( 0.000000000000000000, 0.000000000000000000, 1.000000000000000000 ) ) ;
#68 = PLANE ( 'NONE',  #134 ) ;
#69 = APPROVAL_DATE_TIME ( #7, #99 ) ;
#70 = DATE_AND_TIME ( #33, #144 ) ;
#71 = APPLICATION_PROTOCOL_DEFINITION ( 'international standard', 'config_control_design', 1994, #137 ) ;
#72 = CC_DESIGN_APPROVAL ( #173, ( #65 ) ) ;
#73 = EDGE_LOOP ( 'NONE', ( #38, #76 ) ) ;
#74 = CC_DESIGN_PERSON_AND_ORGANIZATION_ASSIGNMENT ( #54, #24, ( #65 ) ) ;
#75 = CIRCLE ( 'NONE', #26, 15.00000000000000000 ) ;
#76 = ORIENTED_EDGE ( 'NONE', *, *, #104, .T. ) ;
#77 = CIRCLE ( 'NONE', #3, 15.00000000000000000 ) ;
#78 = ADVANCED_FACE ( 'NONE', ( #94 ), #5, .T. ) ;
#79 =( GEOMETRIC_REPRESENTATION_CONTEXT ( 3 ) GLOBAL_UNCERTAINTY_ASSIGNED_CONTEXT ( ( #87 ) ) GLOBAL_UNIT_ASSIGNED_CONTEXT ( ( #8, #128, #110 ) ) REPRESENTATION_CONTEXT ( 'NONE', 'WORKASPACE' ) );
#80 = FACE_OUTER_BOUND ( 'NONE', #11, .T. ) ;
#81 = CIRCLE ( 'NONE', #62, 15.00000000000000000 ) ;
#82 = DIRECTION ( 'NONE',  ( 0.000000000000000000, 0.000000000000000000, 1.000000000000000000 ) ) ;
#83 = APPLICATION_PROTOCOL_DEFINITION ( 'international standard', 'config_control_design', 1994, #136 ) ;
#84 = AXIS2_PLACEMENT_3D ( 'NONE', #168, #140, #155 ) ;
#85 = ORIENTED_EDGE ( 'NONE', *, *, #53, .T. ) ;
#86 = EDGE_LOOP ( 'NONE', ( #130, #171, #132, #37 ) ) ;
#87 = UNCERTAINTY_MEASURE_WITH_UNIT (LENGTH_MEASURE( 1.000000000000000082E-05 ), #8, 'distance_accuracy_value', 'NONE');
#88 = ADVANCED_FACE ( 'NONE', ( #58 ), #123, .T. ) ;
#89 = COORDINATED_UNIVERSAL_TIME_OFFSET ( 8, 0, .AHEAD. ) ;
#90 = CC_DESIGN_SECURITY_CLASSIFICATION ( #131, ( #65 ) ) ;
#91 = ADVANCED_FACE ( 'NONE', ( #107 ), #108, .F. ) ;
#92 = DIRECTION ( 'NONE',  ( -1.000000000000000000, -0.000000000000000000, -0.000000000000000000 ) ) ;
#93 = PERSON ( 'UNSPECIFIED', 'UNSPECIFIED', 'UNSPECIFIED', ('UNSPECIFIED'), ('UNSPECIFIED'), ('UNSPECIFIED') ) ;
#94 = FACE_OUTER_BOUND ( 'NONE', #86, .T. ) ;
#95 = COORDINATED_UNIVERSAL_TIME_OFFSET ( 8, 0, .AHEAD. ) ;
#96 = DIRECTION ( 'NONE',  ( 1.000000000000000000, 0.000000000000000000, 0.000000000000000000 ) ) ;
#97 = CARTESIAN_POINT ( 'NONE',  ( 0.000000000000000000, 0.000000000000000000, 0.000000000000000000 ) ) ;
#98 = APPROVAL_STATUS ( 'not_yet_approved' ) ;
#99 = APPROVAL ( #127, 'UNSPECIFIED' ) ;
#100 = LINE ( 'NONE', #158, #166 ) ;
#101 = DIRECTION ( 'NONE',  ( -1.000000000000000000, -0.000000000000000000, -0.000000000000000000 ) ) ;
#102 = PERSON_AND_ORGANIZATION ( #93, #152 ) ;
#103 = LOCAL_TIME ( 9, 36, 58.00000000000000000, #89 ) ;
#104 = EDGE_CURVE ( 'NONE', #159, #52, #161, .T. ) ;
#105 = APPROVAL_DATE_TIME ( #70, #173 ) ;
#106 = SECURITY_CLASSIFICATION_LEVEL ( 'unclassified' ) ;
#107 = FACE_OUTER_BOUND ( 'NONE', #73, .T. ) ;
#108 = PLANE ( 'NONE',  #84 ) ;
#109 = CC_DESIGN_PERSON_AND_ORGANIZATION_ASSIGNMENT ( #17, #143, ( #133 ) ) ;
#110 =( NAMED_UNIT ( * ) SI_UNIT ( $, .STERADIAN. ) SOLID_ANGLE_UNIT ( ) );
#111 = DATE_TIME_ROLE ( 'creation_date' ) ;
#112 = CC_DESIGN_APPROVAL ( #99, ( #119 ) ) ;
#113 = CARTESIAN_POINT ( 'NONE',  ( -3.000000000000000000, 1.836970198721029589E-15, -15.00000000000000000 ) ) ;
#114 = PERSON_AND_ORGANIZATION ( #93, #152 ) ;
#115 = CARTESIAN_POINT ( 'NONE',  ( -3.000000000000000000, 0.000000000000000000, 15.00000000000000000 ) ) ;
#116 = ORIENTED_EDGE ( 'NONE', *, *, #28, .F. ) ;
#117 = AXIS2_PLACEMENT_3D ( 'NONE', #16, #126, #167 ) ;
#118 = APPROVAL_STATUS ( 'not_yet_approved' ) ;
#119 = PRODUCT_DEFINITION ( 'UNKNOWN', '', #65, #39 ) ;
#120 = MANIFOLD_SOLID_BREP ( 'Ðý×', #42 ) ;
#121 = DIRECTION ( 'NONE',  ( -1.000000000000000000, -0.000000000000000000, -0.000000000000000000 ) ) ;
#122 = APPROVAL_PERSON_ORGANIZATION ( #114, #99, #48 ) ;
#123 = CYLINDRICAL_SURFACE ( 'NONE', #64, 15.00000000000000000 ) ;
#124 = EDGE_CURVE ( 'NONE', #61, #22, #77, .T. ) ;
#125 = DIRECTION ( 'NONE',  ( 0.000000000000000000, 0.000000000000000000, 1.000000000000000000 ) ) ;
#126 = DIRECTION ( 'NONE',  ( -1.000000000000000000, -0.000000000000000000, -0.000000000000000000 ) ) ;
#127 = APPROVAL_STATUS ( 'not_yet_approved' ) ;
#128 =( NAMED_UNIT ( * ) PLANE_ANGLE_UNIT ( ) SI_UNIT ( $, .RADIAN. ) );
#129 = CALENDAR_DATE ( 2020, 24, 12 ) ;
#130 = ORIENTED_EDGE ( 'NONE', *, *, #147, .T. ) ;
#131 = SECURITY_CLASSIFICATION ( '', '', #106 ) ;
#132 = ORIENTED_EDGE ( 'NONE', *, *, #138, .F. ) ;
#133 = PRODUCT ( 'QB-CTZHWP-25.4-852-M', 'QB-CTZHWP-25.4-852-M', '', ( #34 ) ) ;
#134 = AXIS2_PLACEMENT_3D ( 'NONE', #31, #66, #153 ) ;
#135 = PERSON_AND_ORGANIZATION_ROLE ( 'classification_officer' ) ;
#136 = APPLICATION_CONTEXT ( 'configuration controlled 3d designs of mechanical parts and assemblies' ) ;
#137 = APPLICATION_CONTEXT ( 'configuration controlled 3d designs of mechanical parts and assemblies' ) ;
#138 = EDGE_CURVE ( 'NONE', #52, #159, #81, .T. ) ;
#139 = CARTESIAN_POINT ( 'NONE',  ( -1.614212418857619014, 0.000000000000000000, 0.000000000000000000 ) ) ;
#140 = DIRECTION ( 'NONE',  ( 1.000000000000000000, 0.000000000000000000, 0.000000000000000000 ) ) ;
#141 = APPROVAL ( #118, 'UNSPECIFIED' ) ;
#142 = CARTESIAN_POINT ( 'NONE',  ( -3.000000000000000000, 0.000000000000000000, 0.000000000000000000 ) ) ;
#143 = PERSON_AND_ORGANIZATION_ROLE ( 'design_owner' ) ;
#144 = LOCAL_TIME ( 9, 36, 58.00000000000000000, #95 ) ;
#145 = CARTESIAN_POINT ( 'NONE',  ( 3.000000000000000000, 0.000000000000000000, 15.00000000000000000 ) ) ;
#146 = ORIENTED_EDGE ( 'NONE', *, *, #124, .F. ) ;
#147 = EDGE_CURVE ( 'NONE', #22, #61, #75, .T. ) ;
#148 = AXIS2_PLACEMENT_3D ( 'NONE', #139, #15, #82 ) ;
#149 = DATE_AND_TIME ( #150, #103 ) ;
#150 = CALENDAR_DATE ( 2020, 24, 12 ) ;
#151 = LOCAL_TIME ( 9, 36, 58.00000000000000000, #169 ) ;
#152 = ORGANIZATION ( 'UNSPECIFIED', 'UNSPECIFIED', '' ) ;
#153 = DIRECTION ( 'NONE',  ( -0.000000000000000000, 0.000000000000000000, 1.000000000000000000 ) ) ;
#154 = DIRECTION ( 'NONE',  ( -1.000000000000000000, -0.000000000000000000, -0.000000000000000000 ) ) ;
#155 = DIRECTION ( 'NONE',  ( 0.000000000000000000, 0.000000000000000000, -1.000000000000000000 ) ) ;
#156 = APPROVAL_ROLE ( '' ) ;
#157 = PERSON_AND_ORGANIZATION ( #93, #152 ) ;
#158 = CARTESIAN_POINT ( 'NONE',  ( -1.614212418857619014, 0.000000000000000000, 15.00000000000000000 ) ) ;
#159 = VERTEX_POINT ( 'NONE', #113 ) ;
#160 = COORDINATED_UNIVERSAL_TIME_OFFSET ( 8, 0, .AHEAD. ) ;
#161 = CIRCLE ( 'NONE', #117, 15.00000000000000000 ) ;
#162 = PERSON_AND_ORGANIZATION ( #93, #152 ) ;
#163 = APPROVAL_DATE_TIME ( #149, #141 ) ;
#164 = LOCAL_TIME ( 9, 36, 58.00000000000000000, #59 ) ;
#165 = CC_DESIGN_PERSON_AND_ORGANIZATION_ASSIGNMENT ( #102, #135, ( #131 ) ) ;
#166 = VECTOR ( 'NONE', #29, 1000.000000000000000 ) ;
#167 = DIRECTION ( 'NONE',  ( 0.000000000000000000, 0.000000000000000000, 1.000000000000000000 ) ) ;
#168 = CARTESIAN_POINT ( 'NONE',  ( -3.000000000000000888, 12.69999999999999929, 0.000000000000000000 ) ) ;
#169 = COORDINATED_UNIVERSAL_TIME_OFFSET ( 8, 0, .AHEAD. ) ;
#170 = DATE_AND_TIME ( #9, #164 ) ;
#171 = ORIENTED_EDGE ( 'NONE', *, *, #28, .T. ) ;
#172 = LOCAL_TIME ( 9, 36, 58.00000000000000000, #160 ) ;
#173 = APPROVAL ( #98, 'UNSPECIFIED' ) ;
#174 = ORIENTED_EDGE ( 'NONE', *, *, #104, .F. ) ;
#175 = PERSON_AND_ORGANIZATION ( #93, #152 ) ;
ENDSEC;
END-ISO-10303-21;
